Jack the World

by GWAR from This Toilet Earth transcribed by Stephen Boyd boydso@nextwork.rose-hulman.edu
G|--10-10-10--12-12--7-7-7-7-7-7-7-
D|---------------------------------
A|--8--8--8---10-10--5-5-5-5-5-5-5-
E|---------------------------------

play that riff a few times, then:

G|-5-
D|--- a lot (listen to the song for the rhythm)
A|-3-
E|---
  "rid yourself..."

G|--10-10-10--12-12--7-7-7-7-7-7-7-
D|---------------------------------
A|--8--8--8---10-10--5-5-5-5-5-5-5-
E|---------------------------------
  "here's the iron fist"

G|--3-3-3--5-5--7-7-7-7-7-7-7-
D|----------------------------
A|--1-1-1--3-3--5-5-5-5-5-5-5-
E|----------------------------
  "of death for you...."

anyways, thats the parts of the verses...

chorus:

G|-12-12-12-12-12--9-------------------------------------
D|-------------------9-9-9-9-9-10-10-10-10-10-10-5-5-5-5-
A|-10-10-10-10-10--7-------------------------------------
E|-------------------7-7-7-7-7-8--8--8--8--8--8--3-3-3-3-
  "pay             to play     every single day"

G|-12-12-12-12-12--9-----------
D|-------------------9-9-9-9-9-
A|-10-10-10-10-10--7-----------
E|-------------------7-7-7-7-7-
  "to see your brain cells"

G|-------------------------------
D|-10-10-10-10-10-10-12-12-12-12-
A|-------------------------------
E|-8--8--8--8--8--8--10-10-10-10-
  "melt away"

G|-12-12-12-12-12--9-------------------------------------
D|-------------------9-9-9-9-9-10-10-10-10-10-10-5-5-5-5-
A|-10-10-10-10-10--7-------------------------------------
E|-------------------7-7-7-7-7-8--8--8--8--8--8--3-3-3-3-
  

G|-12-12-12-12-12--9-----------
D|-------------------9-9-9-9-9-
A|-10-10-10-10-10--7-----------
E|-------------------7-7-7-7-7-

G|-------------------10-10-10-10-
D|-10-10-10-10-10-10------------- etc
A|-------------------8--8--8--8--
E|-8--8--8--8--8--8--------------

G|-5--5-5-5-5-------7--
D|---------------------
A|-3--3-3-3-3-------5--
E|---------------------
     "jack jack the world"

the rest of the song is just repeats of these parts.

Added wah part at the end:

wah:bass<<<<-->











Make your own free website on Tripod.com