Penis I See

by GWAR, from This Toilet Earth transcribed by Stephen Boyd (boydso@nextwork.rose-hulman.edu) pm.....
D|--7---6---5-----------
A|--5-7-4-6-3-5-4-------
E|----5---4---3-2-2-2-2-etc

           

D|--7---6---5-----------
A|--5-7-4-6-3-5-2-------
E|----5---4---3-0-------

guitar tacet, then:

e|-12-12-12-12-12----12-12-12-12-12----
B|----------------11----------------11-
G|-------------------------------------

e|-------------------------------------
B|-10-10-10-10-10----10-10-10-10-10----
G|----------------11----------------11-

e|-12-12-12-12-12----12-12-12-12-12----
B|----------------11----------------11-
G|-------------------------------------

e|-------------------------------------
B|-10-10-10-10-10----10-10-10-10-10----
G|----------------11----------------11-

e|-15-15-15-15-15----15-15-15-15-15----
B|----------------14----------------14-
G|-------------------------------------

e|-------------------------------------
B|-13-13-13-13-13----13-13-13-13-13----
G|----------------14----------------14-

e|-17-17-17-17-17----17-17-17-17-17----
B|----------------16----------------16-
G|-------------------------------------

e|-17-17-17-17-17----17-17-17-17-17----
B|----------------16----------------16-
G|-------------------------------------

e|-17-17-17-17-17----17-17-17-17-17----
B|----------------16----------------16-
G|-------------------------------------

e|-17-17-17-17-17----17-17-17-17-17----
B|----------------16----------------16-
G|-------------------------------------

then:

D|-10-10-10-
A|-8--8--8-- a lot (i.e. repeat this 

E|----------    chord many times)

D|-9--9--9--11-12-|
A|-7--7--7--9--10-| repeat 4 times
E|----------------|

D|-13-------12-12-10-------12-12-13---------
A|-11-a lot-10-10-10-a lot-10-10-11-a lot-2-
E|----------------------------------------0-

everything from here on is basically just 

a repeat of previous riffs... you can figure 

it out yourself from now on.
Make your own free website on Tripod.com