Salaminizer

(Tune down your guitar to E-Flat)

Introduction:

||---------------------------------------------------------------------
||---------------------------------------------------------------------
||-o-------------------------------------------------------------------
||-o-----2-3-----2---2-2-----2------2-2-----2----2-2-----2-----2-2-3-3-
||---1-1-------1---------0H1-----1------0H1----------0H1-----4---------
||---------------------------------------------3-----------------------

-------------------------------------------||
-------------------------------------------||
------------------------------------------o||
------2-2-3-3-------2-3----2---2-2-----2--o||
--3-3-----------1-1------1---------0H1-----||
-------------------------------------------||


||------------------------------------------------------------------------||
||------------------------------------------------------------------------||
||o---9-10-9----6-7-6----------------------------------------------------o||
||o-8---------5-------------2-2-3-3------2-2-3-3------2-3---2--2-2-----2-o||
||----------------------4-4----------3-3----------1-1-----1--------0H1----||
||------------------------------------------------------------------------||
  Here's a little something ... I don't give a fuck
  Since I was a scumdog ... I'll fuck you
  This is your ass ... till it's rimless

Chorus

||-------------------------------------------------||
||-------------------------------------------------||
||o----------------------------------------------o-||
||o-6-6-6---6-6-6---------2-3-----2---2-2------2-o-||
||--4-4-4---4-4-4-----1-1-------1----------0H1-----||
||-------------------------------------------------||

                           |1. ----------->|2. ----->
||----------------------------------------||---------------|
||----------------------------------------||---------------|
||o--------------------------------------o||---------------|
||o--------------------------------------o||---------------|
||--------5-----7---7---8-8--------5-7-8--||---------5-7---|
||--0-0-0-3-0-0-5-0-5-0-6-6--0-0-0-3-5-6--||---0-0-0-3-5-0-|


||--------------------------------------------------------||
||--------------------------------------------------------||
||o------------------------------------------------------o||
||o-6-6--6-6-6-6-----------------------------------2-2-1-o||
||--4-4--4-4-4-4-------------------4-4-4---3-3-3----------||
||-----------------3-3-3---6-6-6--------------------------||


bauermichael@student.uni-tuebingen.de - 11.10.1994
Make your own free website on Tripod.com