Make your own free website on Tripod.com

Sick of you

I'd post this song (since it's pretty easy). I make no statement about its accuracy, except to say that it sounds good enough to me. 8)

Well, first off, GWAR tunes their instruments 1/2 step, so that's what you gotta do to sound right.


Here's the first riff

 F#
  pm..]          pm..]
|-------0---------------2---------|   play this a couple times
|-------0---0-----------2---2-----|
|-------------3---------------3---|
|---------------------------------|
|-4-4-4----------4-4-4------------|
|-2-2-2----------2-2-2------------|

Then the rhythm guitar (Balsac) plays palm-muted F#5 chords (power chord on 
the 2nd fret of low E string, that is) while the lead guitar (Flattus) plays:

|--2--2--------------------------|   He plays this (or slight variations
|--------2--5--2-----------------|    thereof) a few times.
|--------------------4--4--2-----|
|-----------------------------4--|
|--------------------------------|
|--------------------------------|

The verses are just palm-muted F#5 chords.  The chorus goes like this:

|--------------------------------------------------|
|--------------------------------------------------|
|--------------------------------------------------|
|-------6----7-6-4-2------------6---6---4---6--6---|
|--4----4----5-4-2-0----4---4---4---4---2---4--4---|
|--2--------------------2---2----------------------|
   Sick of   yoooooou  I'm  so sick so sick of you

I think thats all, except for the break-down ("I said break it down!....) and 
all that is is a little non-disorted variation of the lead guitar part above.
(I think). 

Well, I think thats all... let me know if I missed a major part of the song..

Later,
Stephen

+--------------------------------------------------------------------------+
| Steve Portigal, Dep't of CIS, University of Guelph, Guelph, ON, N1G 2W1  |
| email: stevep@snowhite.cis.uoguelph.ca    Phone: (519) 824-4120 ext 3580 |
|~~~~~~~~ ask me about 'undercover' the Rolling Stones mailing list ~~~~~~~|
|              Time waits for no one, and it won't wait for me..           |
+--------------------------------------------------------------------------+